Tab romeo delight --- del guitarrista o grupo van halen
INICIO / cursos de guitarra / top cien artistas / top cien acordes - tabs / contacto / Links / English
Tabs Guitarra. Miles de acordes y tablaturas (tabs)
Ultimos tabs / Artistas / 0-9 a b c d e f g h i j k l m n o p q r s t u v w x y z /
Mas sobre van halen
# romeo delight
# cant stop lovin you
# cathedral
# best of both worlds album
# amsterdam
# big bad bill is sweet william now
# bottoms up
# cabo wabo
# ballot or the bullet
# aftershock
#
Artista o grupo: van halen
Tabs de van halen

romeo delight

Visitas: 273
Tipo: Tabs

Van Halen
Women And Children First
Tabbed By: Jordan House

Tuning:
Eb Ab Db Gb Bb Eb                                                     
Half step down

I wrote this tab because there was none for this specific song. Pretty sure 
everythings right. ENJOY!


         Slight palm mute     A.H.A.H.  Slight palm mute     A.H.       
E|---||------------------------------------------------------------------|
B|---||------------------------------------------------------------------|
G|---||*-----------------------------------------------------------------|
D|---||*------------------------------------------------------7p5--------|
A|---||---7--7--7--7--7--7--7p5--5~~~--7--7--7--7--7--7--7---------------|
E|---||------------------------------------------------------------------|
                                                                        

    A.H.   2x  w/muting                         w/muting                
E|----------||-----------------------------------------------------------|
B|----------||-----------------------------------------------------------|
G|---------*||-----------------------------------------------------------|
D|---5~~~--*||--9--9--9--9--9--9--9--9--\--7--7--9--9--9--9--9--9--9-----|
A|----------||--7--7--7--7--7--7--7--7--\--5--7--7--7--7--7--7--7--7-----|
E|----------||--0--0--0--0--0--0--0--------------0--0--0--0--0--0--0-----|
                                                                        

                w/muting                         w/muting               
E|-----------------------------------------------------------------------|
B|-----------------------------------------------------------------------|
G|---9--\--8--7----------------------------------------------------------|
D|---7--\--6--7--9--9--9--9--9--9--9--9--\--7--7--9--9--9--9--9--9--9----|
A|------------5--7--7--7--7--7--7--7--7--\--5--7--7--7--7--7--7--7--7----|
E|---------------0--0--0--0--0--0--0--------------0--0--0--0--0--0--0----|
                                                                        

                      turn down volume knob                             
E|-----------------------------------------------------------------------|
B|-----------------------------------------------------------------------|
G|---9--\--7--7--9--\----------------------------------------------------|
D|---7--\--5--7--9--\----------------------------------------------------|
A|------------5--7--\----------------------------------------------------|
E|-----------------------------------------------------------------------|

End

QUESTIONS AND COMMENTS? Email me at JORDANHOUSE@ROCKETMAIL.COM.
ENJOY!

tabs romeo delight - Guitar pro, tabs, tablaturas y acordes

Vota Aqui:
Actualizado día 31/07/2014 - RSS Artistas - RSS Tablaturas

tabsguitarra.com is licensed under a Creative Commons Reconocimiento-No comercial-Sin obras derivadas 2.5 España License. Based on a work at tabsguitarra.com