Tab oh pretty woman --- del guitarrista o grupo van halen
INICIO / cursos de guitarra / top cien artistas / top cien acordes - tabs / contacto / Links / English
Tabs Guitarra. Miles de acordes y tablaturas (tabs)
Ultimos tabs / Artistas / 0-9 a b c d e f g h i j k l m n o p q r s t u v w x y z /
Mas sobre van halen
# romeo delight
# amsterdam
# cathedral
# cant stop lovin you
# best of both worlds album
# big bad bill is sweet william now
# bottoms up
# cabo wabo
# 316 ver2
# atomic punk ver2
#
Artista o grupo: van halen
Tabs de van halen

oh pretty woman

Visitas: 266
Tipo: Tabs

Artist: Ray Orbison
Song: Oh, Pretty Woman

Tabbed By maxtheguitarman
Blevinsmmm@comcast.net


Listen To Song To For Timings.


Standard Tuning.


e---------------------------------------------------|
B---------------------------------------------------|
G---------------------------------------------------|
D---------------------------------------------------|
A-------2-5-----------2-5---------------------------|
E-0-0-4---------0-0-4-------------------------------|


e---------------------------------------------------|
B---------------------------------------------------|
G---------------------------------------------------| 4x
D---------------4-2---------------------------------|
A-----------2-5-----5-------------------------------|
E-----0-0-4-----------------------------------------|


e-0-------0----0----0----0--0--0-----0--------------|
B-2-------2----2----2----2--2--2-----2--------------|
G-2-------2----2----2----2--2--2-----2--------------|
D-2-------2----2----2----2--2--2-----2--------------|
A-0-------0----0----0----0--0--0-----0--------------|
E---------------------------------------------------|


e-2----------2----2----2----2--2--2----2------------|
B-2----------2----2----2----2--2--2----2------------|
G-2----------2----2----2----2--2--2----2------------|
D-4----------4----4----4----4--4--4----4------------|
A-4----------4----4----4----4--4--4----4------------|
E-2----------2----2----2----2--2--2----2------------|


e-0----------0----0----0----0--0--0----0------------|
B-2----------2----2----2----2--2--2----2------------|
G-2----------2----2----2----2--2--2----2------------|
D-2----------2----2----2----2--2--2----2------------|
A-0----------0----0----0----0--0--0----0------------|
E---------------------------------------------------|


e-2----------2----2----2----2--2--2----2------------|
B-2----------2----2----2----2--2--2----2------------|
G-2----------2----2----2----2--2--2----2------------|
D-4----------4----4----4----4--4--4----4------------|
A-4----------4----4----4----4--4--4----4------------|
E-2----------2----2----2----2--2--2----2------------|


e-2----------2----2----2----2--2--2----2------------|
B-3----------3----3----3----3--3--3----3------------|
G-2----------2----2----2----2--2--2----2------------|
D-0----------0----0----0----0--0--0----0------------|
A---------------------------------------------------|
E---------------------------------------------------|


e-2---------------2---------------------------------|
B-3---------------3---------------------------------|
G-2---------------2---------------------------------|
D-0---------------0---------------------------------|
A---------------------------------------------------|
E---------------------------------------------------|


e---------------------------------------------------|
B---------------------------------------------------|
G---------------------------------------------------| 2x
D---------------------------------------------------|
A---------------------2--------2-----2--------------|
E-0---------------0---------------------------------|


e---------------------------------------------------|
B---------------------------------------------------|
G---------------------7----------7------------------|
D---------------------6----------6------------------|
A---------------------7----------7------------------|
E-0----0----4----0----------------------------------|


e-3-------------------------------------------------|
B-5-------------------------------------------------|
G-5-------------------------------------------------|
D-5-------------------------------------------------|
A-3-------------------------------------------------|
E---------------------------------------------------|


e-5-------------------------------------------------|
B-5-------------------------------------------------|
G-5-------------------------------------------------|
D-7-------------------------------------------------|
A---------------------------------------------------|
E---------------------------------------------------|


e-5-------------------------------------------------|
B-6-------------------------------------------------|
G-7-------------------------------------------------|
D-7-------------------------------------------------|
A-5-------------------------------------------------|
E---------------------------------------------------|


e-7-------------------------------------------------|
B-6-------------------------------------------------|
G-7-------------------------------------------------|
D-5-------------------------------------------------|
A---------------------------------------------------|
E---------------------------------------------------|


e-8-------------------------------------------------|
B-8-------------------------------------------------|
G-9-------------------------------------------------|
D-10------------------------------------------------|
A---------------------------------------------------|
E---------------------------------------------------|


e-8-----------8-------------------------------------|
B-----8----------------8----------------------------|
G---------9----------------9------------------------|
D---------------------------------------------------|
A---------------------------------------------------|
E---------------------------------------------------|


e-5-------------------------------------------------|
B-6-------------------------------------------------|
G-7-------------------------------------------------|
D-7-------------------------------------------------|
A-5-------------------------------------------------|
E---------------------------------------------------|


e-7-------------------------------------------------|
B-6-------------------------------------------------|
G-7-------------------------------------------------|
D-5-------------------------------------------------|
A---------------------------------------------------|
E---------------------------------------------------|


e-8-------------------------------------------------|
B-8-------------------------------------------------|
G-9-------------------------------------------------|
D-10------------------------------------------------|
A---------------------------------------------------|
E---------------------------------------------------|


e-0--------0----0---------0----0--------------------|
B-2--------2----2---------2----2--------------------|
G-2--------2----2---------2----2--------------------|
D-2--------2----2---------2----2--------------------|
A-0--------0----0---------0----0--------------------|
E---------------------------------------------------|


e-2--------2----2---------2----2----2---------------|
B-2--------2----2---------2----2----2---------------|
G-2--------2----2---------2----2----2---------------|
D-4--------4----4---------4----4----4---------------|
A-4--------4----4---------4----4----4---------------|
E-2--------2----2---------2----2----2---------------|


e-1--------1--------1----1----1---------------------|
B-3--------3--------3----3----3---------------------|
G-2--------2--------2----2----2---------------------|
D-0--------0--------0----0----0---------------------|
A---------------------------------------------------|
E---------------------------------------------------|


e-0--------0----0---------0----0----0---------------|
B-0--------0----0---------0----0----0---------------|
G-1--------1----1---------1----1----1---------------|
D-2--------2----2---------2----2----2---------------|
A-2--------2----2---------2----2----2---------------|
E-0--------0----0---------0----0----0---------------|


e-0---------0-------0-----------0-------0-----------|
B-2---------2-------2-----------2-------2-----------|
G-2---------2-------2-----------2-------2-----------|
D-2---------2-------2-----------2-------2-----------|
A-0---------0-------0-----------0-------0-----------|
E---------------------------------------------------|


e-2---------2-------2-----------2-------2-------2---|
B-2---------2-------2-----------2-------2-------2---|
G-2---------2-------2-----------2-------2-------2---|
D-4---------4-------4-----------4-------4-------4---|
A-4---------4-------4-----------4-------4-------4---|
E-2---------2-------2-----------2-------2-------2---|


e-1---------1-------1-----------1-------1-----------|
B-3---------3-------3-----------3-------3-----------|
G-2---------2-------2-----------2-------2-----------|
D-0---------0-------0-----------0-------0-----------|
A---------------------------------------------------|
E---------------------------------------------------|


e---------------------------------------------------|
B---------------------------------------------------|
G---------------------------------------------------|
D---------------------------------------------------|
A---------------------------------------------------|
E---------0-----------------------------------------|


e---------------------------------------------------|
B---------------------------------------------------|
G---------------------------------------------------| 2x
D---------------------------------------------------|
A------------------2--5-----------------------------|
E---------0--0--4-----------------------------------|


e---------------------------------------------------|
B---------------------------------------------------|
G---------------------------------------------------| 3x
D------------------------4--2-----------------------|
A------------------2--5--------5--------------------|
E---------0--0--4-----------------------------------|


e---------------------------------------------------|
B---------------------------------------------------|
G---------------------------------------------------|
D--2--2---------------------------------------------|
A--0--0---------------------------------------------|
E---------------------------------------------------|

tabs oh pretty woman - Guitar pro, tabs, tablaturas y acordes

Vota Aqui:
Actualizado día 17/09/2014 - RSS Artistas - RSS Tablaturas

tabsguitarra.com is licensed under a Creative Commons Reconocimiento-No comercial-Sin obras derivadas 2.5 España License. Based on a work at tabsguitarra.com