Tab virtual insanity --- del guitarrista o grupo jamiroquai
INICIO / cursos de guitarra / top cien artistas / top cien acordes - tabs / contacto / Links / English
Tabs Guitarra. Miles de acordes y tablaturas (tabs)
Ultimos tabs / Artistas / 0-9 a b c d e f g h i j k l m n o p q r s t u v w x y z /
Mas sobre jamiroquai
# love foolosophy acoustic
# virtual insanity
# seven days in sunny june
# virtual insanity
# virtual insanity ver2
# corner of the earth
# return of the space cowboys
# space cowboy
# too young to die
# virtual insanity intro
#
Artista o grupo: jamiroquai
Tabs de jamiroquai

virtual insanity

Visitas: 782
Tipo: Bass Tabs

Jamiroquai
Virtual Insanity
****************

Tabbed By Eric Siljander < M_Siljander@bc.sympatico.ca >

Hey funky bass players, here are some things you need to know to play
the song right...

The Chorus- You need to know how to slap and pop if it is gonna sound
            right. However this causes there to be dead notes in among
            the clear ones. I won't tab these because it would make it
            way too complicated for you and too hard for myself! The
            rhythm is alittle jumpy and may be hard to get into at
            first, but once you get in the groove, its easy.
The Verses- This section is played with plucking. Try to get some snap
            on all the D-string notes. Stu does whenever I've seen him
            live, and it sounds good!
The Break-  As Stu often does, he ad-libs everywhere. So to make it
            easier on myself, I'll tab the basic pattern and leave
            the ad-libbin' to you. Have fun with it.

   The bass comes in at the First chorus and goes like this...
G-|--16-16-----------------------------------------------------
D-|-------16----------4-------5-----------8-----------5--3-----
A-|---------14\----2-------4----4-4----6-----------4--------1--
E-|------------------------------------------2--2--------------


-----------------------------------------------------------------
-----4-------5-----------8-----------5--3---------4-------5------
--2-------4----4-4----6-----------4--------1---2-------4----4-4--
----------------------------2--2---------------------------------


----------------------------------------------------------------------|
-----8-----------5--3---------4-------5-----------8-----------5-------|
--6-----------4--------1---2-------4----4-4----6-----------4----------|
--------2--2-----------------------------------------2--2--------13\--|

 verse
|-----------------------------------------------------------------------
|-----8--------------------6--------------------4------4------3------6--
|--6--------------6----4-4-------------4----3-3----2-2----1-1----/4-----
|--------2--3--4--------------0--1--2-----------------------------------


------------------------------------------------------------------------
------8--------------------6--------------------4------4------3------6~-
--/6--------------6----4-4-------------4----3-3----2-2----1-1----/4-----
---------2--3--4--------------0--1--2-----------------------------------


------------------------------------------------------------------------
------8--------------------6--------------------4------4------3------6~~
--/6--------------6----4-4-------------4----3-3----2-2----1-1----/4-----
---------2--3--4--------------0--1--2-----------------------------------


----------------------------------------------------------------------|
------8--------------------6--------------------4------4----3--1/8~~--|
--/6--------------6----4-4-------------4----3-3----2-2----1-----------|
---------2--3--4--------------0--1--2---------------------------------|

 The second chorus
|-------------------------------------------------------------------
|-----4-------5-----------8-----------5--3---------4-------5--------
|--2-------4----4-4----6-----------4--------1---2-------4----4-4----
|----------------------------2--2-----------------------------------


------------------------------------------------------------------------
-----8-----------5--3---------4-----5--5-5-5-------8-----------5--3-----
--6-----------4--------1---2------4--4-------4--6-----------4--------1--
--------2--2------------------------------------------2--2--------------


-----------------------------------------------------------------------
-----8-------5-----------8----------------------4-------5-----------8--
--6-------4----4-4----6----------------------2-------4----4-4----6-----
----------------------------2-xxx-2-x-2--9\----------------------------


------------------------------------------------------------------------
-----------5--3---------4-------5-----------8----------------------4----
--------4--------1---2-------4----4-4----6----------------------2-------
--2--2-----------------------------------------2-2-2-xx-2x--9\----------


-----------------------------------------------------------------------
-----5-----------8-----------5--3---------4-------5-----------8--------
--4----4-4----6-----------4--------1---2-------4----4-4----6-----------
--------------------2--2-----------------------------------------2--2--


--------------|
-----5--3-----|
--4--------1--|
--------------|

 The instrumental break...
 Pattern #1
|--10-12-10-12-10--10-12~----------------------------------------------|
|----------------------------------------------------------------------|
|----------------------------------------------------------------------|
|-------------------------6-7-6--6-7-6-7-6-7\0-0-6-7-6-7-6--6-7-6-7-6--|

 fill #1                  End
|--------------------------------------|------|
|--------------------------------------|------|
|--------------------------------------|--6\--|
|--4--4--4--4--4--4--6--6--6--6--6--6--|------|

 Pattern #2
|--8-10-8-10-8--8-10~-------------------------------------------------|
|---------------------------------------------------------------------|
|---------------------------------------------------------------------|
|------------------------4-5-4--4-5-4-5-4-5\0-0-4-5-4-5-4--4-5-4-5-4--|

 fill #2
|------------------------|
|------------------------|
|------------------------|
|--2--0--2------4--2--4--|

Break Structure...
Pattern #1    (x4)
fill #1
Pattern #2    (x2)
fill #2
Pattern #1
Pattern #2
fill #1 + end

 resuming chorus *(not accurate)
|--15p14p12-12p11p9\----6---6---6---------|
|------------------------------------7----|
|---------------------4----4---4---4---0--|
|-----------------------------------------|

 Just alittle ways more...
|-------------------------------------------------------------------
|-----4-------5-----------8-----------5--3---------4-------5--------
|--2-------4----4-4----6-----------4--------1---2-------4----4-4----
|----------------------------2--2-----------------------------------


-----------------------------------------------------------------------
-----8-----------5--3---------4-------5-----------8-----------5--3-----
--6-----------4--------1---2-------4----4-4----6-----------4--------1--
--------2--2-----------------------------------------2--2--------------


----------------------------------------------------------------------
-----4-------5-----------8----------------1/8~~~-----4-------5--------
--2-------4----4-4----6-----------------x---------2-------4----4-4----
----------------------------2-x-2-x-2-2-------------------------------


--------------------------------------------------------------------
-----8-----------5--3---------4-------5-----------8-----------------
--6-----------4--------1---2-------4----4-4----6--------------------
--------2--2-----------------------------------------2--2--4--4--4--


------------------------------------------------------------------------
-------------4-------5-----------8-----------5--3---------4-------5-----
----------2-------4----4-4----6-----------4--------1---2-------4----4-4-
-6--6--6----------------------------2--2--------------------------------


----------------------------------------------------------------------
-----8-----------------------------4-------5-----------8-----------5--
--6-----------------------------2-------4----4-4----6-----------4-----
--------2--2--4--4--4--6--6--6----------------------------2--2--------


------------------------------------------------------------------------
--3---------4-------5-----------8------------------------------------4--
-----1---2-------4----4-4----6------------------------------------2-----
-----------------------------------2-x-2-2-x-2--4--4--4--6--6--6--------


-----------------------------------------------------------------------
-----5-----------8-----------5--3---------4-------5-----------8--------
--4----4-4----6-----------4--------1---2-------4----4-4----6-----------
--------------------2--2-----------------------------------------2--2--


--------------------|
--------------------|
--------------------|
--4--4--4--6--6--6--|



Well thats all funkerz! Whew that took damn long!!! So if you have any
questions, comments, corrections, I would appretiate it! And Have Fun!!!

tabs virtual insanity - Guitar pro, tabs, tablaturas y acordes

Vota Aqui:
Actualizado día 31/10/2014 - RSS Artistas - RSS Tablaturas

tabsguitarra.com is licensed under a Creative Commons Reconocimiento-No comercial-Sin obras derivadas 2.5 España License. Based on a work at tabsguitarra.com