Tab grado 3 --- del guitarrista o grupo glup
INICIO / cursos de guitarra / top cien artistas / top cien acordes - tabs / contacto / Links / English
Tabs Guitarra. Miles de acordes y tablaturas (tabs)
Ultimos tabs / Artistas / 0-9 a b c d e f g h i j k l m n o p q r s t u v w x y z /
Mas sobre glup
# enamorado de ti
# chica light
# grado 3
# welcome polinesia
#
Artista o grupo: glup
Tabs de glup

grado 3

Visitas: 641
Tipo: Bass Tabs

++++++++++++++++++
| Glup!- Grado 3 |
++++++++++++++++++


"Si no fuera porque aún te quiero..."

Tuning: EADG


Intro   
1.
G|---------------------------------------|
D|-------7-7--5-5--7-7-------------------|
A|--5-5-5-5--3-3--5-5--------------------|--x2
E|-3-3-----------------------------------|

Verse
"Un corazón como el tuyo.."
2.
G|---------------------------------------|
D|---------------------------------------|
A|--5-5-2-2--3-3--2-2--3-3---5-5---------|
E|-3-3---2-2--3-3--2-2--3-3-3-3----------|

"Que tu me hiciste a mi..."
3.
G|---------------------------------------|
D|--7-7-7-754----------------------------|
A|-5-5-5---------------------------------|
E|---------------------------------------|

"Un corazón como el tuyo..."
4.
G|---------------------------------------|
D|---------------------------------------|
A|--5-5-2-2--3-3--2-2--3-3---5-5---------|
E|-3-3---2-2--3-3--2-2--3-3-3-3----------|

"Maldito corazón..."
5.
G|---------------------------------------|
D|--7-7-7-7------------------------------|
A|-5-5-5-5-------------------------------|
E|---------------------------------------|

Pre-Chorus
"Si no fuera porque aún te quiero..."
6.
G|------------------------------------------------------|
D|-------5p7-5p7----------------------------------------|
A|-5p7-7---------55-575--3-3-02-2-0-3-3-35-5-5-7-7-7-7--|
E|--------------------------3----2-----3----5-0-0-0-0-0-|

"Si no fuera por todo esto..."
7.
G|---------------------------------------|
D|---------------------------------------|
A|-3-3-35-5-5----------------------------|
E|----3----5-----------------------------|

Chorus
"Escúchame bien, es mi corazón..."
8.
G|-------------------------------------------------------|
D|-------------------------------------------------------|
A|-----5x--3x-3x-5x-5x---------5x5x5x5x-3x3x3x3x-55555555|
E|-3x------------------3x3x3x3x--------------------------|

"Escuchame bien, es mi corazón..."
9.
G|---------------------------------|
D|---------------------------------|
A|--------5555555-3333333-5555555--|--x2
E|-3333333-------------------------|

"Mentira tu vida, es una mentira!..."
10.
G|---------------------------------------|
D|---------------------------------------|
A|--------5555555-3333333-2222222--------|
E|-3333333-------------------------------|

"Y una cosa muy distinta es Grado 3..."
11.
G|---------------------------------------|
D|---------------------------------------|
A|--3-3-3--5-5-5--7-7-7-7--3-3-3-55-5----|
E|-----3------5--0-0-0-0-0----3----5-----|

Bridge
12.
G|------------------------------|
D|------------------------------|
A|--5-5-2-2--3-3--2-2--3-3---5-5|
E|-3-3---2-2--3-3--2-2--3-3-3-3-|
          
13.                           
G|------------|
D|--7-7-7-754-|
A|-5-5-5------|
E|------------|

14.
G|------------------------------|
D|------------------------------|
A|--5-5-2-2--3-3--2-2--3-3---5-5|
E|-3-3---2-2--3-3--2-2--3-3-3-3-|
          
15.                           
G|------------|
D|--7-7-7-754-|
A|-5-5-5------|
E|------------|

Pre-Chorus
"Si no fuera porque aún te quiero..."
12.
G|-----------------------------------------------------|
D|-------5p7-5p7---------------------------------------|
A|-5p7-7---------55-575--3-3-02-2-0-3-3-35-5-5-7-7-7-7-|
E|--------------------------3----2-----3----5-0-0-0-0-0|

"Si no fuera por todo esto..."
13.
G|-------------|
D|-------------|
A|-3-3-35-5-5--|
E|----3----5---|


Lyrics:


Un corazón como el tuyo
Se merece mucho menos que un perro
Se merece patearlo en el suelo
Así es...

Un corazón como el tuyo
Me dejó asi como me ves
Con el alma partida en tres
Me matoo

Un corazón como el tuyo
No merece volver a querer
Ojalá que alguien te haga lo mismo
Que tu me hiciste a mi

Un corazón como el tuyo
Fue del mismo que me enamoré
Maldita mi suerte contigo
Maldito corazón

Si no fuera porque aún te quiero
Si no fuera porque ayer
Todavia yo dormía entre tus pies...
Si no fuera por todo esto

Escuchame bien, es mi corazón
El que esta roto por tu traición
Mentira tu vida, es una mentira
Mentira tus besos, mentira tu amor!

Una cosa es traicionar... 
Y otra cosa muy distinta es grado tres
Si no fuera por todo estooo



+++++++++++++++++++++++++++++++++
| RaiLeff                       |
| Underground__Dora@Hotmail.Com |
+++++++++++++++++++++++++++++++++

tabs grado 3 - Guitar pro, tabs, tablaturas y acordes

Vota Aqui:
Actualizado día 29/11/2014 - RSS Artistas - RSS Tablaturas

tabsguitarra.com is licensed under a Creative Commons Reconocimiento-No comercial-Sin obras derivadas 2.5 España License. Based on a work at tabsguitarra.com