Tab the heart of dixie --- del guitarrista o grupo danielle bradbery
INICIO / cursos de guitarra / top cien artistas / top cien acordes - tabs / contacto / Links / English
Tabs Guitarra. Miles de acordes y tablaturas (tabs)
Ultimos tabs / Artistas / 0-9 a b c d e f g h i j k l m n o p q r s t u v w x y z /
Mas sobre danielle bradbery
# the heart of dixie
#
Artista o grupo: danielle bradbery
Tabs de danielle bradbery

the heart of dixie

Visitas: 66
Tipo: Tabs

-------------------------------------------------------------------------------
The Heart of Dixie - Danielle Bradbery
 -------------------------------------------------------------------------------

Tabbed by:Lane Smith
E-mail:
http://daniellebradbery.com/
https://www.facebook.com/pages/Danielle-Bradbery/173145822836649
Here is the song: http://www.youtube.com/watch?v=94EWgmanJOQ
Here is a tutorial: http://www.youtube.com/watch?v=pPuQ1vr3r-E

 Tuned 1/2 step down: (Eb, Bb, Gb, Db, Ab, Eb)
Chords used in song: (All chords relative to tuning)
     G Cadd9  Dsus4  Dsus4/A Dadd4/F#  D   Em7  Am   C  G(1) Bm#5  Csus2  A
eb|--3---3------3------3-------3-------2---3----0----0---3----3-----3-----0-----|
Bb|--3---3------3------3-------3-------3---3----1----1---3----3-----3-----2-----|
Gb|--0---0------2------2-------2-------2---0----2----0---0----0-----0-----2-----|
Db|--0---2------0------0-------0-------0---2----2----2---0----0-----0-----2-----|
Ab|--2---3------x------0-------0-------x---2----0----3---x----2-----3-----0-----|
Eb|--3---x------x------X-------2-------x---0----x----X---3----x-----x-----x-----|

     Em7(1) G(2)
eb|--3------3---|
Bb|--3------3---|
Gb|--0------0---|
Db|--2------0---|
Ab|--x------x---|
Eb|--x------x---|

Intro
eb|-3--3--3--3--3------------------|-3--3--3--3--3------------------|
Bb|-3--3--3--3--3------------------|-3--3--3--3--3------------------|
Gb|-0--0--0--0--2------------------|-0--0--0--0--2------------------|
Db|-0--0--0--0--0------------------|-0--0--0--0--0------------------|
Ab|-x--2--3--2--0------------------|-x--2--3--2--x------------------|
Eb|-3--x--x--x--x------------------|-3--x--x--x--x------------------|
               (^ These chords get a full measure ^)

Verse
           G(1)    Bm#5       Csus2    Dsus4
She had a dead-end job at the National Bank
      G(1)     Bm#5        Csus2  Dsus4
And a deadbeat husband who always drank
           G(1)        Bm#5             Csus2  Dsus4
So when he didn't come home she had the gin to thank
        Em7   Dadd4/F# G    Cadd9                     (The beats for this line are tricky.
For the tears   in     her  eyes          <-------     The Em7 gets 3 beats, the 
Dadd4/F# gets 2, and
   Em7         Dadd4/F#     G        A                 the G gets 2, and the Cadd9 gets 
9. Just listen
So Dixie packed up and said her goodbyes             to the song if you have trouble. 
Its the same in
                                                       the 2nd verse too)
Chorus
             G  Cadd9   D
And she went driving so far away nobody's gonna find her
G Cadd9     D
Flying just fast enough, to leave it all behind her
Em7              Dadd4/F#                 G            Cadd9
But she didn't know till she hit the road, deep in her soul
Am
She's got the fire and the fight of a gypsy
C                               D
Ain't nothing stronger than the heart of Dixie

G(1) Bm#5 Csus2 Bm#5 Dsus4/A# (the heart of Dixie)
G(1) Bm#5 Csus2 Bm#5 Dsus4

Verse 2
       G(1)  Bm#5            Csus2       Dsus4
It's a funny thing when your world falls down
           G(1)           Bm#5           Csus2 Dsus4
It's got a way of showing you what you're all about
    G(1)            Bm#5   Csus2   Dsus4
Now Dixie's got her wheels pointed south
              Em7   Dadd4/F# G  Cadd9
And she ain't never   look-ing  back
Em7    Dadd4/F#     G         A
Nobody knew she was brave like that

Chorus

G(1) Bm#5 Csus2 Bm#5 Dsus4/A# (the heart of Dixie)
Em7(1) G(2) Bm#5 Dsus4 *let ring*

Bridge
     G(1)       Bm#5      Csus2     Dsus4
Yeah Dixie woke up to the truth one day
            G(1)  Bm#5               Csus2    Dsus4
Grabbed her cheap sunglasses and her lipstick case

Chorus

G(1) Bm#5 Csus2 Bm#5 Dsus4 (the heart of Dixie)
G(1) Bm#5 Csus2 Bm#5 Dsus4
O-o-ooh
G(1) Bm#5 Csus2 Bm#5 Dsus4 (the heart of Dixie)
                      O-o-oh
G(1) Bm#5 Csus2 Bm#5 Dsus4 G

Please comment with any corrections or suggestions. Thanks

************************************
| / slide up
| \ slide down
| H hammer-on
| p pull-off
| ~ vibrato
| + harmonic
| x Mute note
| B Bend
| pb Pre-bend
| br Bend release
| pbr Pre-bend release
| brb Bend release bend
************************************

tabs the heart of dixie - Guitar pro, tabs, tablaturas y acordes

Vota Aqui:
Actualizado día 22/12/2014 - RSS Artistas - RSS Tablaturas

tabsguitarra.com is licensed under a Creative Commons Reconocimiento-No comercial-Sin obras derivadas 2.5 España License. Based on a work at tabsguitarra.com