Tab genie in a bottle --- del guitarrista o grupo christina aguilera
INICIO / cursos de guitarra / top cien artistas / top cien acordes - tabs / contacto / Links / English
Tabs Guitarra. Miles de acordes y tablaturas (tabs)
Ultimos tabs / Artistas / 0-9 a b c d e f g h i j k l m n o p q r s t u v w x y z /
Mas sobre christina aguilera
# hurt ver3
# hurt
# genie in a bottle
# hurt
# silent night
# im ok
# walk away
# hello
# im ok
# im ok ver2
#
Artista o grupo: christina aguilera
Tabs de christina aguilera

genie in a bottle

Visitas: 140
Tipo: Tabs

-------------------------------------------------------------------------------
			     GENIE IN A BOTTLE - Christina Aguilera
-------------------------------------------------------------------------------
Tabbed by: metallhead
Email: homesticky@gmail.com

Tuning: E A D G B E


Gtr I (E A D G B E) - 'Piano'
Gtr II (E A D G B E) - 'Voice'
Gtr III (E A D G B E) - 'Strings'
Gtr IV (E A D G B E) - 'Keyboard'
Gtr V (E A D G B E) - 'Guitar'
Gtr VI (E A D G B E) - 'Brass'

  Q=90
 4/4
  Gtr I
   S  S  S  S  +E   E  +S  E S S S S S
|-13-------11-(11)-11-(11)-9---8-6-4-3-|
|-13-------11-(11)-11-(11)-9-----------|
|----13--------------------------------|
|-------15-----------------------------|
|--------------------------------------|
|-13-------11-(11)-11-(11)-9-8-8-6-4-3-|
|
| Gtr III
|  W
|--------------------------------------|
|--------------------------------------|
|--------------------------------------|
|--------------------------------------|
|--------------------------------------|
|--------------------------------------|
|
| Gtr IV
|  W
|--------------------------------------|
|--------------------------------------|
|--------------------------------------|
|--------------------------------------|
|--------------------------------------|
|--------------------------------------|


  Q          Q       H                         W
|-1----------------------------------------|----------------------|
|------------------------------------------|----------------------|
|------------------------------------------|----------------------|
|------------------------------------------|----------------------|
|------------------------------------------|----------------------|
|-1----------------------------------------|----------------------|
|
| S S S  S  +S   E.  S  S  S  S  +S   E  S    +S  E  S  +Q   H
|-1-4-8-15-(15)-13-----------11-(11)-13-11-|-(11)-9-11-(11)-------|
|-------------------------11---------------|----------------------|
|----------------------12------------------|----------------------|
|-------------------13---------------------|----------------------|
|------------------------------------------|----------------------|
|------------------------------------------|----------------------|
|
| H                  Q            Q            H             H
|-------------------11---------------------|---9------------------|
|-------------------11---------------------|---9------------------|
|-------------------12---------------------|--10------------------|
|------------------------------------------|----------------------|
|------------------------------------------|----------------------|
|------------------------------------------|----------------------|


  Gtr II
   W                                            H             Q  E S S
|-------------------------------------------|------------------------6-|
|-------------------------------------------|--------------------------|
|-------------------------------------------|--------------------------|
|-------------------------------------------|--------------------------|
|-------------------------------------------|--------------------------|
|-------------------------------------------|--------------------------|
|
|  S S S  S  +S   E.  S  S  S  S  +S   E  S    +S  E  S  +Q   H
|------8-15-(15)-13-----------11-(11)-13-11-|-(11)-9-11-(11)-----------|
|----9---------------------11---------------|--------------------------|
|-10--------------------12------------------|--------------------------|
|--------------------13---------------------|--------------------------|
|-------------------------------------------|--------------------------|
|-------------------------------------------|--------------------------|
|
|  H                  Q            Q            H             H
|--------------------11---------------------|---9----------------------|
|--------------------11---------------------|---9----------------------|
|--------------------12---------------------|--10----------------------|
|-------------------------------------------|--------------------------|
|-------------------------------------------|--------------------------|
|-------------------------------------------|--------------------------|


   E    S  S  +S   E   S  +S   E     S  +S   S  S  S
|-16---16-16-(16)-15--15-(15)-13----13-(13)-------11--|
|-------------------------------------------13-13-----|
|-----------------------------------------------------|
|-----------------------------------------------------|
|-----------------------------------------------------|
|-----------------------------------------------------|
|
|  S S  S  S  +S   E.      S   S  S  S  +S   E     S
|-------8-15-(15)-13----------------11-(11)-13----11--|
|----9---------------------------11-------------------|
|-10--------------------------12----------------------|
|-------------------------13--------------------------|
|-----------------------------------------------------|
|-----------------------------------------------------|
|
|  H                       Q             Q
|-------------------------11--------------------------|
|-------------------------11--------------------------|
|-------------------------12--------------------------|
|-----------------------------------------------------|
|-----------------------------------------------------|
|-----------------------------------------------------|


   +S   E  S  +S  E S +S  E S Q
|-(11)-11-11-(11)-9-9-(9)-8-8-6--|
|--------------------------------|
|--------------------------------|
|--------------------------------|
|--------------------------------|
|--------------------------------|
|
|  +S   E  S  +Q       H
|-(11)--9-11-(11)----------------|
|--------------------------------|
|--------------------------------|
|--------------------------------|
|--------------------------------|
|--------------------------------|
|
|   H                  H
|---9----------------------------|
|---9----------------------------|
|--10----------------------------|
|--------------------------------|
|--------------------------------|
|--------------------------------|


   S S S  S  +S   E  S  Q            S   S S  S    +S  E.      Q   Q  E S S
|--6-6-6--8--(8)--6--8--6----------------4-4--6-|--(6)-8------------------6--|
|-----------------------6-----------------------|----------------------------|
|-----------------------------------------------|----------------------------|
|-----------------------------------------------|----------------------------|
|-----------------------------------------------|----------------------------|
|-----------------------------------------------|----------------------------|
|
|  S S S  S  +S   E.    S  S  S  S  +S   E    S    +S  E   S  +Q   H
|------8-15-(15)-13-------------11-(11)-13---11-|-(11)-9--11-(11)------------|
|----9-----------------------11-----------------|----------------------------|
|-10----------------------12--------------------|----------------------------|
|----------------------13-----------------------|----------------------------|
|-----------------------------------------------|----------------------------|
|-----------------------------------------------|----------------------------|
|
|  H                    Q            Q              H              H
|----------------------11-----------------------|---9------------------------|
|----------------------11-----------------------|---9------------------------|
|----------------------12-----------------------|--10------------------------|
|-----------------------------------------------|----------------------------|
|-----------------------------------------------|----------------------------|
|-----------------------------------------------|----------------------------|


   S  S  S  S  +S   S   S  S  S  S  S  S  +E      S  S
|-16-16-16-16-(16)-15--15-15-15-13-13-13-(13)-------11-|
|------------------------------------------------13----|
|------------------------------------------------------|
|------------------------------------------------------|
|------------------------------------------------------|
|------------------------------------------------------|
|
|  S  S  S  S  +S   E.        S  S  S  S  +S   E     S
|--------8-15-(15)-13-----------------11-(11)-13----11-|
|-----9----------------------------11------------------|
|-10----------------------------12---------------------|
|----------------------------13------------------------|
|------------------------------------------------------|
|------------------------------------------------------|
|
|  H                          Q            Q
|----------------------------11------------------------|
|----------------------------11------------------------|
|----------------------------12------------------------|
|------------------------------------------------------|
|------------------------------------------------------|
|------------------------------------------------------|


   +S   E  S  +S  S S S S S S S Q
|-(11)-11-11-(11)-9-9-9-9-8-8-8-6--|
|----------------------------------|
|----------------------------------|
|----------------------------------|
|----------------------------------|
|----------------------------------|
|
|  +S   E  S  +Q        H
|-(11)--9-11-(11)------------------|
|----------------------------------|
|----------------------------------|
|----------------------------------|
|----------------------------------|
|----------------------------------|
|
|   H                   H
|---9------------------------------|
|---9------------------------------|
|--10------------------------------|
|----------------------------------|
|----------------------------------|
|----------------------------------|


  Gtr I
   W                                               W
|----------------------------------------------|----------------------|
|----------------------------------------------|----------------------|
|----------------------------------------------|----------------------|
|----------------------------------------------|----------------------|
|----------------------------------------------|----------------------|
|----------------------------------------------|----------------------|
|
| Gtr II
|  E   S  S  +S   S  E +E      E     +Q            W
|--6---6--8--(8)--8--6-(6)-----4-----(4)-------|----------------------|
|----------------------------------------------|----------------------|
|----------------------------------------------|----------------------|
|----------------------------------------------|----------------------|
|----------------------------------------------|----------------------|
|----------------------------------------------|----------------------|
|
| Gtr III
|  S S S  S  +S   E.    S   S  S  S  +S   E  S    +S  E  S  +Q   H
|------8-15-(15)-13--------------11-(11)-13-11-|-(11)-9-11-(11)-------|
|----9------------------------11---------------|----------------------|
|-10-----------------------12------------------|----------------------|
|----------------------13----------------------|----------------------|
|----------------------------------------------|----------------------|
|----------------------------------------------|----------------------|


   S  S  S  S   S   S   S  S  S   S  S  S   S   S  E
|-20-------20----------20--------23--------23-----------|
|----21--------21---------21-----23--------23-----------|
|-------22---------22--------22-----24-20------24-20----|
|-------------------------------------------------------|
|-------------------------------------------------------|
|-------------------------------------------------------|
|
|  Q            E       E    +E      E     +E      E
|--4--------------------3----(3)-------------------1----|
|------------------------------------1-----(1)----------|
|---------------5---------------------------------------|
|-------------------------------------------------------|
|-------------------------------------------------------|
|-------------------------------------------------------|
|
|  S  S  S  S  +S   E.        S   S  S  S  +S   E     S
|--------8-15-(15)-13------------------11-(11)-13----11-|
|-----9-----------------------------11------------------|
|-10-----------------------------12---------------------|
|----------------------------13-------------------------|
|-------------------------------------------------------|
|-------------------------------------------------------|


    S   S  S  S   S   S  S  S  S  S  S  S  S  S  E
|--21--------21---------21-------23-------23-------|
|--21--------21---------21-------23-------23-------|
|------22--------22--------22-------24-20----24-20-|
|---------23---------23-------23-------------------|
|--------------------------------------------------|
|--------------------------------------------------|
|
|  +Q             Q            H
|--(1)---------------------------------------------|
|--------------------------------------------------|
|--------------------------------------------------|
|--------------------------------------------------|
|--------------------------------------------------|
|--------------------------------------------------|
|
|  +S   E     S  +Q            H
|-(11)--9----11-(11)-------------------------------|
|--------------------------------------------------|
|--------------------------------------------------|
|--------------------------------------------------|
|--------------------------------------------------|
|--------------------------------------------------|


   S  S  S  S   S   S   S  S  S   S  S  S   S   S  E
|-20-------20----------20--------23--------23-----------|
|----21--------21---------21-----23--------23-----------|
|-------22---------22--------22-----24-20------24-20----|
|-------------------------------------------------------|
|-------------------------------------------------------|
|-------------------------------------------------------|
|
|  Q            E       E    +E      E     +E      E
|--4--------------------3----(3)-------------------1----|
|------------------------------------1-----(1)----------|
|---------------5---------------------------------------|
|-------------------------------------------------------|
|-------------------------------------------------------|
|-------------------------------------------------------|
|
|  S  S  S  S  +S   E.        S   S  S  S  +S   E     S
|--------8-15-(15)-13------------------11-(11)-13----11-|
|-----9-----------------------------11------------------|
|-10-----------------------------12---------------------|
|----------------------------13-------------------------|
|-------------------------------------------------------|
|-------------------------------------------------------|


    S   S  S  S   S   S  S  S  S  S  S  S  S  S  S  S
|--21--------21---------21-------23-------------------|
|--21--------21---------21-------23-------------------|
|------22--------22--------22-------24-20-------------|
|---------23---------23-------23----------22-20-18-17-|
|-----------------------------------------------------|
|-----------------------------------------------------|
|
|  +Q             Q            H
|--(1)------------------------------------------------|
|-----------------------------------------------------|
|-----------------------------------------------------|
|-----------------------------------------------------|
|-----------------------------------------------------|
|-----------------------------------------------------|
|
|  +S   E     S  +Q            H
|-(11)--9----11-(11)----------------------------------|
|-----------------------------------------------------|
|-----------------------------------------------------|
|-----------------------------------------------------|
|-----------------------------------------------------|
|-----------------------------------------------------|


   S  S  S  S  S  S  S  S  S  S  S  S  S  S  E
|-20-------20-------20-------23-------23-------|
|----21-------21-------21----23-------23-------|
|-------22-------22-------22----24-20----24-20-|
|----------------------------------------------|
|-20-------------------------------------------|
|----------------------------------------------|
|
|  Q           E     E     E     E     E     E
|--------------1-----6-----8-----6-----4-----3-|
|--------------------8-----9-----8-----6-----4-|
|----------------------------------------------|
|----------------------------------------------|
|----------------------------------------------|
|----------------------------------------------|
|
| Gtr V
|  Q           Q           H
|----------------------------------------------|
|----------------------------------------------|
|----------------------------------------------|
|----------------------------------------------|
|--3-------------------------------------------|
|--1-------------------------------------------|


   S  S  S  S  S  S  S  S  S  S  S  S  S  S  E
|-21-------21-------21-------23-------23-------|
|-21-------21-------21-------23-------23-------|
|----22-------22-------22-------24-20----24-20-|
|-------23-------23-------23-------------------|
|----------------------------------------------|
|----------------------------------------------|
|
|  Q           E     E     E     E     E     E
|--1-----------4-----6-----8-----6-----4-----3-|
|--2-----------6-----8-----9-----8-----6-----4-|
|----------------------------------------------|
|----------------------------------------------|
|----------------------------------------------|
|----------------------------------------------|
|
|  W
|----------------------------------------------|
|----------------------------------------------|
|----------------------------------------------|
|----------------------------------------------|
|----------------------------------------------|
|----------------------------------------------|


   S  S  S  S  S  S  S  S  S  S  S  S  S  S  E
|-20-------20-------20-------23-------23---------|
|----21-------21-------21----23-------23---------|
|-------22-------22-------22----24-20----24-20---|
|------------------------------------------------|
|-20---------------------------------------------|
|------------------------------------------------|
|
|  Q           E     E     E     E     E     S S
|--1-----------4-----6-----8-----6-----6-----4-6-|
|--1-----------6-----8-----9-----8-----8-----6-8-|
|------------------------------------------------|
|------------------------------------------------|
|------------------------------------------------|
|------------------------------------------------|
|
|  Q           Q           H
|------------------------------------------------|
|------------------------------------------------|
|------------------------------------------------|
|------------------------------------------------|
|--3---------------------------------------------|
|--1---------------------------------------------|


   S  S  S  S  S  S  S  S  S  S  S  S  S  S  E
|-21-------21-------21-------20-------20-------|
|-21-------21-------21-------20-------20-------|
|----22-------22-------22-------21-------21----|
|-------23-------23-------23-------22-------22-|
|----------------------------------------------|
|----------------------------------------------|
|
|  S  Q           S  S  S  E     E     E     E
|--6--4-----------4--4--4--3-----4-----6-----6-|
|-----6-----------6--6--6--5-----6-----8-----8-|
|----------------------------------------------|
|----------------------------------------------|
|----------------------------------------------|
|----------------------------------------------|
|
|  W
|----------------------------------------------|
|----------------------------------------------|
|----------------------------------------------|
|----------------------------------------------|
|----------------------------------------------|
|----------------------------------------------|


   S  S  S  S  S  S  S  S  S  S  S  S  S  S  E
|-20-------20-------20-------23-------23--------|
|----21-------21-------21----23-------23--------|
|-------22-------22-------22----24-20----24-20--|
|-----------------------------------------------|
|-20--------------------------------------------|
|-----------------------------------------------|
|
|  Q           E     E     E     E     E     E
|--4-----------4-----6-----8-----6-----4-----3--|
|--6-----------6-----9-----9-----8-----6-----4--|
|-----------------------------------------------|
|-----------------------------------------------|
|-----------------------------------------------|
|-----------------------------------------------|
|
|  Q           Q           H
|-----------------------------------------------|
|-----------------------------------------------|
|-----------------------------------------------|
|-----------------------------------------------|
|--3--------------------------------------------|
|--1--------------------------------------------|


   S  S  S  S  S  S  S  S  S  S  S  S  S  S  E
|-21-------21-------21-------23-------23-------|
|-21-------21-------21-------23-------23-------|
|----22-------22-------22-------24-20----24-20-|
|-------23-------23-------23-------------------|
|----------------------------------------------|
|----------------------------------------------|
|
|  Q           E     E     E     E     E     E
|--1-----------4-----6-----8-----6-----4-----3-|
|--2-----------6-----8-----9-----8-----6-----4-|
|----------------------------------------------|
|----------------------------------------------|
|----------------------------------------------|
|----------------------------------------------|
|
|  W
|----------------------------------------------|
|----------------------------------------------|
|----------------------------------------------|
|----------------------------------------------|
|----------------------------------------------|
|----------------------------------------------|


   S  S  S  S  S  S  S  S  S  S  S  S  S  S  E
|-20-------20-------20-------23-------23---------|
|----21-------21-------21----23-------23---------|
|-------22-------22-------22----24-20----24-20---|
|------------------------------------------------|
|-20---------------------------------------------|
|------------------------------------------------|
|
|  Q           S  S  S  S  E     E     E     S S
|--1--------------4--4--6--8-----6-----6-----4-6-|
|--1--------------6--6--8--9-----8-----8-----6-8-|
|------------------------------------------------|
|------------------------------------------------|
|------------------------------------------------|
|------------------------------------------------|
|
|  Q           Q           H
|------------------------------------------------|
|------------------------------------------------|
|------------------------------------------------|
|------------------------------------------------|
|--3---------------------------------------------|
|--1---------------------------------------------|


   S  S   S  S  S  S  S  S  S  S  S  S  S  S  E
|-21--------21-------21-------20-------20-------|
|-21--------21-------21-------20-------20-------|
|----22--------22-------22-------21-------21----|
|--------23-------23-------23-------22-------22-|
|-----------------------------------------------|
|-----------------------------------------------|
|
|  S  E.        E     S  S  E     E     E     E
|--6--4---------------4--4--3-----4-----6-----6-|
|-----6---------------6--6--5-----6-----8-----8-|
|-----------------------------------------------|
|-----------------------------------------------|
|-----------------------------------------------|
|-----------------------------------------------|
|
| Gtr IV
|  W
|-----------------------------------------------|
|-----------------------------------------------|
|-----------------------------------------------|
|-----------------------------------------------|
|-----------------------------------------------|
|-----------------------------------------------|


  Gtr III
   S  S S  S  +S   E.    S  S  S  S  +S   E  S    +S  E  S  +Q   H
|-------8-15-(15)-13-------------11-(11)-13-11-|-(11)-9-11-(11)-------|
|-----9-----------------------11---------------|----------------------|
|-10-----------------------12------------------|----------------------|
|-----------------------13---------------------|----------------------|
|----------------------------------------------|----------------------|
|----------------------------------------------|----------------------|
|
|  Q.                 E  H                         W
|--4------------------3--1---------------------|----------------------|
|--6------------------4--1---------------------|----------------------|
|----------------------------------------------|----------------------|
|----------------------------------------------|----------------------|
|----------------------------------------------|----------------------|
|----------------------------------------------|----------------------|
|
|  H                     Q            Q            H             H
|-----------------------11---------------------|---9------------------|
|-----------------------11---------------------|---9------------------|
|-----------------------12---------------------|--10------------------|
|----------------------------------------------|----------------------|
|----------------------------------------------|----------------------|
|----------------------------------------------|----------------------|


  Gtr II
   W                                            W
|-------------------------------------------|----------------------|
|-------------------------------------------|----------------------|
|-------------------------------------------|----------------------|
|-------------------------------------------|----------------------|
|-------------------------------------------|----------------------|
|-------------------------------------------|----------------------|
|
| Gtr III
|  S S S  S  +S   E.  S  S  S  S  +S   E  S    +S  E  S  +Q   H
|------8-15-(15)-13-----------11-(11)-13-11-|-(11)-9-11-(11)-------|
|----9---------------------11---------------|----------------------|
|-10--------------------12------------------|----------------------|
|--------------------13---------------------|----------------------|
|-------------------------------------------|----------------------|
|-------------------------------------------|----------------------|
|
|  H                  Q            Q            H             H
|--------------------11---------------------|---9------------------|
|--------------------11---------------------|---9------------------|
|--------------------12---------------------|--10------------------|
|-------------------------------------------|----------------------|
|-------------------------------------------|----------------------|
|-------------------------------------------|----------------------|


   E    S  S  +S   S   S  S  E     E      Q
|-16---16-16-(16)-15--15-15-15----13-----13--------|
|--------------------------------------------------|
|--------------------------------------------------|
|--------------------------------------------------|
|--------------------------------------------------|
|--------------------------------------------------|
|
|  S S  S  S  +S   E.        S  S  S  S  +S   E  S
|-------8-15-(15)-13-----------------11-(11)-13-11-|
|----9----------------------------11---------------|
|-10---------------------------12------------------|
|---------------------------13---------------------|
|--------------------------------------------------|
|--------------------------------------------------|
|
|  H                         Q            Q
|---------------------------11---------------------|
|---------------------------11---------------------|
|---------------------------12---------------------|
|--------------------------------------------------|
|--------------------------------------------------|
|--------------------------------------------------|


    E     E      S  S S S S S S S Q
|--11----11-----11--9-9-9-9-8-8-8-6--|
|------------------------------------|
|------------------------------------|
|------------------------------------|
|------------------------------------|
|------------------------------------|
|
|  +S  E     S  +Q        H
|-(11)-9----11-(11)------------------|
|------------------------------------|
|------------------------------------|
|------------------------------------|
|------------------------------------|
|------------------------------------|
|
|   H                     H
|---9--------------------------------|
|---9--------------------------------|
|--10--------------------------------|
|------------------------------------|
|------------------------------------|
|------------------------------------|


   S S S  S  +S   E  S  Q            S   E  S    +S  E.     +Q   H
|--6-6-6--8--(8)--6--8--6----------------4--6-|--(6)-8------(8)-------|
|-----------------------6---------------------|-----------------------|
|---------------------------------------------|-----------------------|
|---------------------------------------------|-----------------------|
|---------------------------------------------|-----------------------|
|---------------------------------------------|-----------------------|
|
|  S S S  S  +S   E.    S  S  S  S  +S   E  S    +S  E   S  +Q   H
|------8-15-(15)-13-------------11-(11)-13-11-|-(11)-9--11-(11)-------|
|----9-----------------------11---------------|-----------------------|
|-10----------------------12------------------|-----------------------|
|----------------------13---------------------|-----------------------|
|---------------------------------------------|-----------------------|
|---------------------------------------------|-----------------------|
|
|  H                    Q            Q            H              H
|----------------------11---------------------|---9-------------------|
|----------------------11---------------------|---9-------------------|
|----------------------12---------------------|--10-------------------|
|---------------------------------------------|-----------------------|
|---------------------------------------------|-----------------------|
|---------------------------------------------|-----------------------|


  Gtr I
   S  S  S  S   S   S  S  S  S  S  S  S   S   S  E
|-20-------20---------20-------23--------23-----------|
|----21--------21--------21----23--------23-----------|
|-------22---------22-------22----24-20------24-20----|
|-----------------------------------------------------|
|-----------------------------------------------------|
|-----------------------------------------------------|
|
| Gtr II
|  S  E     S  +S   S  S  S  S  S  S  S  +E      S  S
|-16-16----16-(16)-15-15-15-15-13-13-13-(13)-------11-|
|-----------------------------------------------13----|
|-----------------------------------------------------|
|-----------------------------------------------------|
|-----------------------------------------------------|
|-----------------------------------------------------|
|
|  H                         Q            Q
|---------------------------11------------------------|
|---------------------------11------------------------|
|---------------------------12------------------------|
|-----------------------------------------------------|
|-----------------------------------------------------|
|-----------------------------------------------------|


    S   S  S  S   S   S  S  S  S  S  S  S  S  S  E
|--21--------21---------21-------23-------23-------|
|--21--------21---------21-------23-------23-------|
|------22--------22--------22-------24-20----24-20-|
|---------23---------23-------23-------------------|
|--------------------------------------------------|
|--------------------------------------------------|
|
|  +S   E     S  +S   S  S  S  S  S  S  S  Q
|-(11)-11----11-(11)--9--9--9--9--8--8--8--6-------|
|--------------------------------------------------|
|--------------------------------------------------|
|--------------------------------------------------|
|--------------------------------------------------|
|--------------------------------------------------|
|
|   H                          H
|---9----------------------------------------------|
|---9----------------------------------------------|
|--10----------------------------------------------|
|--------------------------------------------------|
|--------------------------------------------------|
|--------------------------------------------------|


   S  S  S  S  S   S  S  S  S   S  S  S  S   S  E
|-20-------20--------20--------23-------23--------|
|----21-------21--------21-----23-------23--------|
|-------22--------22-------22-----24-20-----24-20-|
|-------------------------------------------------|
|-------------------------------------------------|
|-------------------------------------------------|
|
|  E     S  S +S   S  E    +E      E    +Q
|--6-----6--8-(8)--8--6----(6)-----4----(4)-------|
|-------------------------------------------------|
|-------------------------------------------------|
|-------------------------------------------------|
|-------------------------------------------------|
|-------------------------------------------------|
|
|  H                        Q            Q
|--------------------------11---------------------|
|--------------------------11---------------------|
|--------------------------12---------------------|
|-------------------------------------------------|
|-------------------------------------------------|
|-------------------------------------------------|


   S  S  S  S  S  S  S  S  S  S  S  S  S  S  E
|-21-------21-------21-------23-------23--------|
|-21-------21-------21-------23-------23--------|
|----22-------22-------22-------24-20----24-20--|
|-------23-------23-------23--------------------|
|-----------------------------------------------|
|-----------------------------------------------|
|
|  W
|-----------------------------------------------|
|-----------------------------------------------|
|-----------------------------------------------|
|-----------------------------------------------|
|-----------------------------------------------|
|-----------------------------------------------|
|
|  H                       H
|--9--------------------------------------------|
|--9--------------------------------------------|
|-10--------------------------------------------|
|-----------------------------------------------|
|-----------------------------------------------|
|-----------------------------------------------|


   S  S  S  S   S   S   S  S  S   S  S  S   S   S  E
|-20-------20----------20--------23--------23-----------|
|----21--------21---------21-----23--------23-----------|
|-------22---------22--------22-----24-20------24-20----|
|-------------------------------------------------------|
|-------------------------------------------------------|
|-------------------------------------------------------|
|
|  Q            E       E    +E      E     +E      E
|--4--------------------3----(3)-------------------1----|
|------------------------------------1-----(1)----------|
|---------------5---------------------------------------|
|-------------------------------------------------------|
|-------------------------------------------------------|
|-------------------------------------------------------|
|
| Gtr III
|  S  S  S  S  +S   E.        S   S  S  S  +S   E     S
|--------8-15-(15)-13------------------11-(11)-13----11-|
|-----9-----------------------------11------------------|
|-10-----------------------------12---------------------|
|----------------------------13-------------------------|
|-------------------------------------------------------|
|-------------------------------------------------------|


    S   S  S  S   S   S  S  S  S  S  S  S  S  S  E
|--21--------21---------21-------23-------23-------|
|--21--------21---------21-------23-------23-------|
|------22--------22--------22-------24-20----24-20-|
|---------23---------23-------23-------------------|
|--------------------------------------------------|
|--------------------------------------------------|
|
|  +Q             Q            H
|--(1)---------------------------------------------|
|--------------------------------------------------|
|--------------------------------------------------|
|--------------------------------------------------|
|--------------------------------------------------|
|--------------------------------------------------|
|
|  +S   E     S  +Q            H
|-(11)--9----11-(11)-------------------------------|
|--------------------------------------------------|
|--------------------------------------------------|
|--------------------------------------------------|
|--------------------------------------------------|
|--------------------------------------------------|


   S  S  S  S   S   S   S  S  S   S  S  S   S   S  E
|-20-------20----------20--------23--------23-----------|
|----21--------21---------21-----23--------23-----------|
|-------22---------22--------22-----24-20------24-20----|
|-------------------------------------------------------|
|-------------------------------------------------------|
|-------------------------------------------------------|
|
|  Q            E       E    +E      E     +E      E
|--4--------------------3----(3)-------------------1----|
|------------------------------------1-----(1)----------|
|---------------5---------------------------------------|
|-------------------------------------------------------|
|-------------------------------------------------------|
|-------------------------------------------------------|
|
|  S  S  S  S  +S   E.        S   S  S  S  +S   E     S
|--------8-15-(15)-13------------------11-(11)-13----11-|
|-----9-----------------------------11------------------|
|-10-----------------------------12---------------------|
|----------------------------13-------------------------|
|-------------------------------------------------------|
|-------------------------------------------------------|


    S   S  S  S   S   S  S  S  S  S  S  S  S  S  S  S
|--21--------21---------21-------23-------------------|
|--21--------21---------21-------23-------------------|
|------22--------22--------22-------24-20-------------|
|---------23---------23-------23----------22-20-18-17-|
|-----------------------------------------------------|
|-----------------------------------------------------|
|
|  +Q             Q            H
|--(1)------------------------------------------------|
|-----------------------------------------------------|
|-----------------------------------------------------|
|-----------------------------------------------------|
|-----------------------------------------------------|
|-----------------------------------------------------|
|
|  +S   E     S  +Q            H
|-(11)--9----11-(11)----------------------------------|
|-----------------------------------------------------|
|-----------------------------------------------------|
|-----------------------------------------------------|
|-----------------------------------------------------|
|-----------------------------------------------------|


   S  S  S  S  S  S  S  S  S  S  S  S  S  S  E
|-20-------20-------20-------23-------23-------|
|----21-------21-------21----23-------23-------|
|-------22-------22-------22----24-20----24-20-|
|----------------------------------------------|
|-20-------------------------------------------|
|----------------------------------------------|
|
|  Q           E     E     E     E     E     E
|--------------1-----6-----8-----6-----4-----3-|
|--------------------8-----9-----8-----6-----4-|
|----------------------------------------------|
|----------------------------------------------|
|----------------------------------------------|
|----------------------------------------------|
|
| Gtr V
|  Q           Q           H
|----------------------------------------------|
|----------------------------------------------|
|----------------------------------------------|
|----------------------------------------------|
|--3-------------------------------------------|
|--1-------------------------------------------|


   S  S  S  S  S  S  S  S  S  S  S  S  S  S  E
|-21-------21-------21-------23-------23--------|
|-21-------21-------21-------23-------23--------|
|----22-------22-------22-------24-20----24-20--|
|-------23-------23-------23--------------------|
|-----------------------------------------------|
|-----------------------------------------------|
|
|  Q           E     E     E     E     E     E
|--1-----------4-----6-----8-----6-----4-----3--|
|--2-----------6-----8-----9-----8-----6-----4--|
|-----------------------------------------------|
|-----------------------------------------------|
|-----------------------------------------------|
|-----------------------------------------------|
|
|  W
|-----------------------------------------------|
|-----------------------------------------------|
|-----------------------------------------------|
|-----------------------------------------------|
|-----------------------------------------------|
|-----------------------------------------------|


   S  S  S  S  S  S  S  S  S  S  S  S  S  S  E
|-20-------20-------20-------23-------23---------|
|----21-------21-------21----23-------23---------|
|-------22-------22-------22----24-20----24-20---|
|------------------------------------------------|
|-20---------------------------------------------|
|------------------------------------------------|
|
|  Q           E     E     E     E     E     S S
|--1-----------4-----6-----8-----6-----6-----4-6-|
|--1-----------6-----8-----9-----8-----8-----6-8-|
|------------------------------------------------|
|------------------------------------------------|
|------------------------------------------------|
|------------------------------------------------|
|
|  Q           Q           H
|------------------------------------------------|
|------------------------------------------------|
|------------------------------------------------|
|------------------------------------------------|
|--3---------------------------------------------|
|--1---------------------------------------------|


   S  S  S  S  S  S  S  S  S  S  S  S  S  S  E
|-21-------21-------21-------20-------20-------|
|-21-------21-------21-------20-------20-------|
|----22-------22-------22-------21-------21----|
|-------23-------23-------23-------22-------22-|
|----------------------------------------------|
|----------------------------------------------|
|
|  S  Q           S  S  S  E     E     E     E
|--6--4-----------4--4--4--3-----4-----6-----6-|
|-----6-----------6--6--6--5-----6-----8-----8-|
|----------------------------------------------|
|----------------------------------------------|
|----------------------------------------------|
|----------------------------------------------|
|
|  W
|----------------------------------------------|
|----------------------------------------------|
|----------------------------------------------|
|----------------------------------------------|
|----------------------------------------------|
|----------------------------------------------|


   S  S  S  S  S  S  S  S  S  S  S  S  S  S  E
|-20-------20-------20-------23-------23-------|
|----21-------21-------21----23-------23-------|
|-------22-------22-------22----24-20----24-20-|
|----------------------------------------------|
|-20-------------------------------------------|
|----------------------------------------------|
|
|  Q           E     E     E     E     E     E
|--4-----------4-----6-----8-----6-----4-----3-|
|--6-----------6-----9-----9-----8-----6-----4-|
|----------------------------------------------|
|----------------------------------------------|
|----------------------------------------------|
|----------------------------------------------|
|
|  Q           Q           H
|----------------------------------------------|
|----------------------------------------------|
|----------------------------------------------|
|----------------------------------------------|
|--3-------------------------------------------|
|--1-------------------------------------------|


   S  S  S  S  S  S  S  S  S  S  S  S  S  S  E
|-21-------21-------21-------23-------23--------|
|-21-------21-------21-------23-------23--------|
|----22-------22-------22-------24-20----24-20--|
|-------23-------23-------23--------------------|
|-----------------------------------------------|
|-----------------------------------------------|
|
|  Q           E     E     E     E     E     E
|--1-----------4-----6-----8-----6-----4-----3--|
|--2-----------6-----8-----9-----8-----6-----4--|
|-----------------------------------------------|
|-----------------------------------------------|
|-----------------------------------------------|
|-----------------------------------------------|
|
|  W
|-----------------------------------------------|
|-----------------------------------------------|
|-----------------------------------------------|
|-----------------------------------------------|
|-----------------------------------------------|
|-----------------------------------------------|


   S  S  S  S  S  S  S  S  S  S  S  S  S   S  E
|-20-------20-------20-------23-------23-----------|
|----21-------21-------21----23-------23-----------|
|-------22-------22-------22----24-20-----24-20----|
|--------------------------------------------------|
|-20-----------------------------------------------|
|--------------------------------------------------|
|
|  Q           E     E     E     S  S +S   E     S
|--1-----------------4-----8--------8-(8)--8----13-|
|--1-----------------6-----9-----9--9-(9)--9----11-|
|-------------------------------10-----------------|
|--------------------------------------------------|
|--------------------------------------------------|
|--------------------------------------------------|
|
|  Q           Q           H
|--------------------------------------------------|
|--------------------------------------------------|
|--------------------------------------------------|
|--------------------------------------------------|
|--3-----------------------------------------------|
|--1-----------------------------------------------|


    S   S  S  S  S  S  S  S  S  S  S  S  S  S  E
|--21--------21-------21-------20-------20-------|
|--21--------21-------21-------20-------20-------|
|------22-------22-------22-------21-------21----|
|---------23-------23-------23-------22-------22-|
|------------------------------------------------|
|------------------------------------------------|
|
|  +E      E     E     E     E     E     E     E
|-(13)-------------------------------------------|
|-(11)----13----13-----9-----8-----9----11----11-|
|---------10----10----10-----9----10----12----12-|
|------------------------------------------------|
|------------------------------------------------|
|------------------------------------------------|
|
|   W
|------------------------------------------------|
|------------------------------------------------|
|------------------------------------------------|
|------------------------------------------------|
|------------------------------------------------|
|------------------------------------------------|


  Gtr II
   Q.           E    H            W          W
|-------------------------------|----------|---------------------------|
|--9------------8---------------|----------|---------------------------|
|-10------------8---10----------|----------|---------------------------|
|-------------------10----------|----------|---------------------------|
|-------------------------------|----------|---------------------------|
|-------------------------------|----------|---------------------------|
|
| Gtr V
|  Q       Q         H            W          Q      Q       H
|-------------------------------|----------|---------------------------|
|-------------------------------|----------|---------------------------|
|-------------------------------|----------|---------------------------|
|-------------------------------|----------|---------------------------|
|--3----------------------------|----------|-3-------------------------|
|--1----------------------------|----------|-1-------------------------|
|
| Gtr VI
|  S  E S +S  E   S +E  E E S S   W          S E S +S  E S +E  E E S S
|-----------------4-(4)---4-6-6-|----------|-------------4-(4)---4-6-6-|
|--6--6-4-(4)-6---------6-------|----------|-6-6-4-(4)-6-------6-------|
|-------------------------------|----------|---------------------------|
|-------------------------------|----------|---------------------------|
|-------------------------------|----------|---------------------------|
|-------------------------------|----------|---------------------------|


  W          W
|----------|---------------------------|
|----------|---------------------------|
|----------|---------------------------|
|----------|---------------------------|
|----------|---------------------------|
|----------|---------------------------|
|
| W          Q      Q       H
|----------|---------------------------|
|----------|---------------------------|
|----------|---------------------------|
|----------|---------------------------|
|----------|-3-------------------------|
|----------|-1-------------------------|
|
| W          S E S +S  E S +E  E E S S
|----------|-------------4-(4)---4-6-6-|
|----------|-6-6-4-(4)-6-------6-------|
|----------|---------------------------|
|----------|---------------------------|
|----------|---------------------------|
|----------|---------------------------|


  Q  E S  S  +S   S  S  S S  S  E   W
|---------------------------------|--------------------|
|-------------------------9-11-13-|--------------------|
|--------10-(10)-10-10-10---------|--------------------|
|---------------------------------|--------------------|
|---------------------------------|--------------------|
|---------------------------------|--------------------|
|
| W                                 Q      Q      H
|---------------------------------|--------------------|
|---------------------------------|--------------------|
|---------------------------------|--------------------|
|---------------------------------|--------------------|
|---------------------------------|-3------------------|
|---------------------------------|-1------------------|
|
| W                                 S E S +S  E S H
|---------------------------------|-------------4------|
|---------------------------------|-6-6-4-(4)-6--------|
|---------------------------------|--------------------|
|---------------------------------|--------------------|
|---------------------------------|--------------------|
|---------------------------------|--------------------|


  Gtr I
  H    Q   S  S  S  S    S  S  S  S  S  S  S  S   S   S  S  S   S   S  E
|---------------------|-20-------20-------20---------23--------23--------|
|---------------------|----21-------21-------21------23--------23--------|
|---------------------|-------22-------22--------22-----24-20------24-20-|
|---------22-20-18-17-|--------------------------------------------------|
|---------------------|--------------------------------------------------|
|---------------------|--------------------------------------------------|
|
| Gtr II
| W                      Q           E     E     +E      E     +E      E
|---------------------|--------------------------------------------------|
|---------------------|--------------------------------------------------|
|---------------------|-13-----------------------------------------------|
|---------------------|-------------------17----(17)------------------15-|
|---------------------|-------------15------------------15----(15)-------|
|---------------------|--------------------------------------------------|


    S   S  S  S  S  S  S  S  S  S  S  S  S  S  E
|--21--------21-------21-------23-------23-------|
|--21--------21-------21-------23-------23-------|
|------22-------22-------22-------24-20----24-20-|
|---------23-------23-------23-------------------|
|------------------------------------------------|
|------------------------------------------------|
|
|  +Q            Q           H
|------------------------------------------------|
|------------------------------------------------|
|------------------------------------------------|
|-(15)-------------------------------------------|
|------------------------------------------------|
|------------------------------------------------|


   S  S  S  S  S  S  S  S   S   S  S  S   S   S  E
|-20-------20-------20---------23--------23---------|
|----21-------21-------21------23--------23---------|
|-------22-------22--------22-----24-20------24-20--|
|---------------------------------------------------|
|---------------------------------------------------|
|---------------------------------------------------|
|
|  Q           E     E     +E      E     +E      E
|---------------------------------------------------|
|---------------------------------------------------|
|-13------------------------------------------------|
|-------------------17----(17)------------------15--|
|-------------15------------------15----(15)--------|
|---------------------------------------------------|


    S   S  S  S  S  S  E H       S  S  S  S  S  S  S  S  S  S  S  S  S  S  E
|--21--------21-------21------|-20-------20-------20-------23-------23--------|
|--21--------21-------21------|----21-------21-------21----23-------23--------|
|------22-------22------------|-------22-------22-------22----24-20----24-20--|
|---------23-------23---------|-----------------------------------------------|
|-----------------------------|-20--------------------------------------------|
|-----------------------------|-----------------------------------------------|
|
|  +Q            Q       H       Q           E     E     E     E     E     E
|-----------------------------|-----------------------------------------------|
|-----------------------------|-------------------------13----11-----9-----8--|
|-----------------------------|-------------------15----13----12----10-----8--|
|-(15)------------------------|-------------15----17--------------------------|
|-----------------------------|-----------------------------------------------|
|-----------------------------|-----------------------------------------------|
|
| Gtr V
|   W                            Q           Q           H
|-----------------------------|-----------------------------------------------|
|-----------------------------|-----------------------------------------------|
|-----------------------------|-----------------------------------------------|
|-----------------------------|-----------------------------------------------|
|-----------------------------|--3--------------------------------------------|
|-----------------------------|--1--------------------------------------------|


   S  S  S  S  S  S  S  S  S  S  S  S  S  S  E
|-21-------21-------21-------23-------23-------|
|-21-------21-------21-------23-------23-------|
|----22-------22-------22-------24-20----24-20-|
|-------23-------23-------23-------------------|
|----------------------------------------------|
|----------------------------------------------|
|
|  Q           E     E     E     E     E     E
|--------------4-----6-----8-----6-----4-----3-|
|--6-----------6-----8-----9-----8-----6-----4-|
|--6-------------------------------------------|
|----------------------------------------------|
|----------------------------------------------|
|----------------------------------------------|
|
|  W
|----------------------------------------------|
|----------------------------------------------|
|----------------------------------------------|
|----------------------------------------------|
|----------------------------------------------|
|----------------------------------------------|


   S  S  S  S  S  S  S  S  S  S  S  S  S  S  E
|-20-------20-------20-------23-------23---------|
|----21-------21-------21----23-------23---------|
|-------22-------22-------22----24-20----24-20---|
|------------------------------------------------|
|-20---------------------------------------------|
|------------------------------------------------|
|
|  Q           E     E     E     E     E     S S
|--1-----------4-----6-----8-----6-----6-----4-6-|
|--1-----------6-----8-----9-----8-----8-----6-8-|
|------------------------------------------------|
|------------------------------------------------|
|------------------------------------------------|
|------------------------------------------------|
|
|  Q           Q           H
|------------------------------------------------|
|------------------------------------------------|
|------------------------------------------------|
|------------------------------------------------|
|--3---------------------------------------------|
|--1---------------------------------------------|


   S  S  S  S  S  S  S  S  S  S  S  S  S  S  E
|-21-------21-------21-------20-------20-------|
|-21-------21-------21-------20-------20-------|
|----22-------22-------22-------21-------21----|
|-------23-------23-------23-------22-------22-|
|----------------------------------------------|
|----------------------------------------------|
|
|  S  Q           S  S  S  E     E     E     E
|--6--4-----------4--4--4--3-----4-----6-----6-|
|-----6-----------6--6--6--5-----6-----8-----8-|
|----------------------------------------------|
|----------------------------------------------|
|----------------------------------------------|
|----------------------------------------------|
|
|  W
|----------------------------------------------|
|----------------------------------------------|
|----------------------------------------------|
|----------------------------------------------|
|----------------------------------------------|
|----------------------------------------------|


   S  S  S  S  S  S  S  S  S  S  S  S  S  S  E
|-20-------20-------20-------23-------23--------|
|----21-------21-------21----23-------23--------|
|-------22-------22-------22----24-20----24-20--|
|-----------------------------------------------|
|-20--------------------------------------------|
|-----------------------------------------------|
|
|  Q           E     E     E     E     E     E
|--4-----------4-----6-----8-----6-----4-----3--|
|--6-----------6-----9-----9-----8-----6-----4--|
|-----------------------------------------------|
|-----------------------------------------------|
|-----------------------------------------------|
|-----------------------------------------------|
|
|  Q           Q           H
|-----------------------------------------------|
|-----------------------------------------------|
|-----------------------------------------------|
|-----------------------------------------------|
|--3--------------------------------------------|
|--1--------------------------------------------|


   S  S  S  S  S  S  S  S  S  S  S  S  S  S  E
|-21-------21-------21-------23-------23-------|
|-21-------21-------21-------23-------23-------|
|----22-------22-------22-------24-20----24-20-|
|-------23-------23-------23-------------------|
|----------------------------------------------|
|----------------------------------------------|
|
|  Q           E     E     E     E     E     E
|--1-----------4-----6-----8-----6-----4-----3-|
|--2-----------6-----8-----9-----8-----6-----4-|
|----------------------------------------------|
|----------------------------------------------|
|----------------------------------------------|
|----------------------------------------------|
|
|  W
|----------------------------------------------|
|----------------------------------------------|
|----------------------------------------------|
|----------------------------------------------|
|----------------------------------------------|
|----------------------------------------------|


   S  S  S  S  S  S  S  S  S  S  S  S  S  S  E
|-20-------20-------20-------23-------23---------|
|----21-------21-------21----23-------23---------|
|-------22-------22-------22----24-20----24-20---|
|------------------------------------------------|
|-20---------------------------------------------|
|------------------------------------------------|
|
|  Q           S  S  S  S  E     E     E     S S
|--1--------------4--4--6--8-----6-----6-----4-6-|
|--1--------------6--6--8--9-----8-----8-----6-8-|
|------------------------------------------------|
|------------------------------------------------|
|------------------------------------------------|
|------------------------------------------------|
|
|  Q           Q           H
|------------------------------------------------|
|------------------------------------------------|
|------------------------------------------------|
|------------------------------------------------|
|--3---------------------------------------------|
|--1---------------------------------------------|


   S  S   S  S  S  S  S  S  S  S  S  S  S  S  E
|-21--------21-------21-------20-------20-------|
|-21--------21-------21-------20-------20-------|
|----22--------22-------22-------21-------21----|
|--------23-------23-------23-------22-------22-|
|-----------------------------------------------|
|-----------------------------------------------|
|
|  S  E.        E     S  S  E     E     E     E
|--6--4---------------4--4--3-----4-----6-----6-|
|-----6---------------6--6--5-----6-----8-----8-|
|-----------------------------------------------|
|-----------------------------------------------|
|-----------------------------------------------|
|-----------------------------------------------|
|
|  W
|-----------------------------------------------|
|-----------------------------------------------|
|-----------------------------------------------|
|-----------------------------------------------|
|-----------------------------------------------|
|-----------------------------------------------|


   S  S  S  S  S  S  S  S  S  S  S  S  S  S  E
|-20-------20-------20-------23-------23--------|
|----21-------21-------21----23-------23--------|
|-------22-------22-------22----24-20----24-20--|
|-----------------------------------------------|
|-20--------------------------------------------|
|-----------------------------------------------|
|
|  Q           E     E     E     E     E     E
|--4-----------------6-----8-----6-----4-----3--|
|--6-----------6-----9-----9-----8-----6-----4--|
|-----------------------------------------------|
|-----------------------------------------------|
|-----------------------------------------------|
|-----------------------------------------------|
|
|  Q           Q           H
|-----------------------------------------------|
|-----------------------------------------------|
|-----------------------------------------------|
|-----------------------------------------------|
|--3--------------------------------------------|
|--1--------------------------------------------|


   S  S  S  S  S  S  S  S  S  S  S  S  S  S  E
|-21-------21-------21-------23-------23-------|
|-21-------21-------21-------23-------23-------|
|----22-------22-------22-------24-20----24-20-|
|-------23-------23-------23-------------------|
|----------------------------------------------|
|----------------------------------------------|
|
|  Q           E     E     E     E     E     E
|--1-----------4-----6-----8-----6-----4-----3-|
|--2-----------6-----8-----9-----8-----6-----4-|
|----------------------------------------------|
|----------------------------------------------|
|----------------------------------------------|
|----------------------------------------------|
|
|  W
|----------------------------------------------|
|-----------------

tabs genie in a bottle - Guitar pro, tabs, tablaturas y acordes

Vota Aqui:
Actualizado día 22/08/2014 - RSS Artistas - RSS Tablaturas

tabsguitarra.com is licensed under a Creative Commons Reconocimiento-No comercial-Sin obras derivadas 2.5 España License. Based on a work at tabsguitarra.com