www.tabsguitarras.com

commercial breakdown

the sunshine underground
Visitas: 221 Puntuacion: - Tipo: Bass Tabs

The Sunshine Underground
Commercial Breakdown

Bass


(?) = not sure if this note is right, comment if you get the right note


Intro - 1 bar after guitar

G|----------------------------------------------------------------------|
D|----------------------------------------------------------------------|
A|-------------------44-44-44-777744-55-55-55-777755--------------------|
E|---55-55-55-777755---------------------------------55-55-55-55-5-5----|


Verse

G|-----------------------------------------------------------------------|
D|-----------------------------------------------------------------------|
A|-------------------44404440444044404-55505550555055505--------7-77754--|
E|---5575557555755575------------------------------------557557----------|

G|------------------------------------------------------------------------|
D|------------------------------------------------------------------------|
A|-------------------44-44-44-777744-55-55-55-777755----------------------|
E|---55-55-55-777755---------------------------------55-55-55-55-5-5------|

Pre Chorus

 "So i told my problems..."
G|--------------------------------------------------------|
D|--------------------------------------------------------|
A|--------------------------------------------------------|
E|---2~---9~--10~----55-55-55-55-5--- (or D-77-77-77-7-7)-|

Chorus

G|-----------------------------------------------------------------|
D|-----------------------------------------------------------------|
A|-------------------44-44-44-44-4-4-55-55-55-5-5------------------|
E|---22-22-22-22-2-2------------------------------55-55-55-55-5-5--|

Verse
Pre Chorus
Chorus

Solo

Same as intro/verse kinda, just listen, simple to get

Guitar breakdown

Build up

G|---------------------------------------------------------------------|
D|---------------------------------------------------------------------|
A|-------------------4444444444444445555555555555555-------------------|
E|---5555555555555555-------------------------------5555555555555555---| (listen for timing)

Outro = Intro


Rate Please

Jack00743 x